ISO-10303-21;
HEADER;
/* Generated by software containing ST-Developer
 * from STEP Tools, Inc. (www.steptools.com) 
 */

FILE_DESCRIPTION(
/* description */ (''),
/* implementation_level */ '2;1');

FILE_NAME(
/* name */ 
'C:\\Users\\CAD Station\\Desktop\\Uninsulated_Wire_Ferrules\\UnInsulat
ed_Ferrules.stp',
/* time_stamp */ '2016-06-10T15:24:34-04:00',
/* author */ ('CAD Station'),
/* organization */ (''),
/* preprocessor_version */ 'ST-DEVELOPER v16.1',
/* originating_system */ 'Autodesk Inventor 2016',
/* authorisation */ '');

FILE_SCHEMA (('AUTOMOTIVE_DESIGN { 1 0 10303 214 3 1 1 }'));
ENDSEC;

DATA;
#10=MECHANICAL_DESIGN_GEOMETRIC_PRESENTATION_REPRESENTATION('',(#183,#184,
#180,#181,#182,#185,#186,#187,#188,#189,#177,#174,#175,#176,#178,#179,#190),
#359);
#11=SHAPE_REPRESENTATION_RELATIONSHIP('SRR','None',#368,#12);
#12=ADVANCED_BREP_SHAPE_REPRESENTATION('',(#13),#358);
#13=MANIFOLD_SOLID_BREP('Solid1',#207);
#14=PLANE('',#226);
#15=PLANE('',#234);
#16=CYLINDRICAL_SURFACE('',#212,0.5);
#17=CYLINDRICAL_SURFACE('',#217,0.65);
#18=CYLINDRICAL_SURFACE('',#222,0.9);
#19=CYLINDRICAL_SURFACE('',#230,1.05);
#20=FACE_BOUND('',#53,.T.);
#21=FACE_BOUND('',#55,.T.);
#22=FACE_BOUND('',#57,.T.);
#23=FACE_BOUND('',#59,.T.);
#24=FACE_BOUND('',#61,.T.);
#25=FACE_BOUND('',#63,.T.);
#26=FACE_BOUND('',#65,.T.);
#27=FACE_BOUND('',#67,.T.);
#28=FACE_BOUND('',#69,.T.);
#29=FACE_BOUND('',#71,.T.);
#30=FACE_BOUND('',#73,.T.);
#31=FACE_BOUND('',#75,.T.);
#32=FACE_BOUND('',#77,.T.);
#33=FACE_BOUND('',#79,.T.);
#34=FACE_BOUND('',#81,.T.);
#35=FACE_BOUND('',#83,.T.);
#36=FACE_OUTER_BOUND('',#52,.T.);
#37=FACE_OUTER_BOUND('',#54,.T.);
#38=FACE_OUTER_BOUND('',#56,.T.);
#39=FACE_OUTER_BOUND('',#58,.T.);
#40=FACE_OUTER_BOUND('',#60,.T.);
#41=FACE_OUTER_BOUND('',#62,.T.);
#42=FACE_OUTER_BOUND('',#64,.T.);
#43=FACE_OUTER_BOUND('',#66,.T.);
#44=FACE_OUTER_BOUND('',#68,.T.);
#45=FACE_OUTER_BOUND('',#70,.T.);
#46=FACE_OUTER_BOUND('',#72,.T.);
#47=FACE_OUTER_BOUND('',#74,.T.);
#48=FACE_OUTER_BOUND('',#76,.T.);
#49=FACE_OUTER_BOUND('',#78,.T.);
#50=FACE_OUTER_BOUND('',#80,.T.);
#51=FACE_OUTER_BOUND('',#82,.T.);
#52=EDGE_LOOP('',(#132));
#53=EDGE_LOOP('',(#133));
#54=EDGE_LOOP('',(#134));
#55=EDGE_LOOP('',(#135));
#56=EDGE_LOOP('',(#136));
#57=EDGE_LOOP('',(#137));
#58=EDGE_LOOP('',(#138));
#59=EDGE_LOOP('',(#139));
#60=EDGE_LOOP('',(#140));
#61=EDGE_LOOP('',(#141));
#62=EDGE_LOOP('',(#142));
#63=EDGE_LOOP('',(#143));
#64=EDGE_LOOP('',(#144));
#65=EDGE_LOOP('',(#145));
#66=EDGE_LOOP('',(#146));
#67=EDGE_LOOP('',(#147));
#68=EDGE_LOOP('',(#148));
#69=EDGE_LOOP('',(#149));
#70=EDGE_LOOP('',(#150));
#71=EDGE_LOOP('',(#151));
#72=EDGE_LOOP('',(#152));
#73=EDGE_LOOP('',(#153));
#74=EDGE_LOOP('',(#154));
#75=EDGE_LOOP('',(#155));
#76=EDGE_LOOP('',(#156));
#77=EDGE_LOOP('',(#157));
#78=EDGE_LOOP('',(#158));
#79=EDGE_LOOP('',(#159));
#80=EDGE_LOOP('',(#160));
#81=EDGE_LOOP('',(#161));
#82=EDGE_LOOP('',(#162));
#83=EDGE_LOOP('',(#163));
#84=CIRCLE('',#210,0.674630281020169);
#85=CIRCLE('',#211,0.5);
#86=CIRCLE('',#213,0.5);
#87=CIRCLE('',#215,0.65);
#88=CIRCLE('',#216,0.824630281020154);
#89=CIRCLE('',#218,0.65);
#90=CIRCLE('',#220,0.882946236846447);
#91=CIRCLE('',#221,0.9);
#92=CIRCLE('',#223,0.9);
#93=CIRCLE('',#225,0.95);
#94=CIRCLE('',#227,1.);
#95=CIRCLE('',#229,1.05);
#96=CIRCLE('',#231,1.05);
#97=CIRCLE('',#233,0.6);
#98=CIRCLE('',#235,0.55);
#99=CIRCLE('',#238,1.03294623684645);
#100=VERTEX_POINT('',#309);
#101=VERTEX_POINT('',#311);
#102=VERTEX_POINT('',#314);
#103=VERTEX_POINT('',#317);
#104=VERTEX_POINT('',#319);
#105=VERTEX_POINT('',#322);
#106=VERTEX_POINT('',#325);
#107=VERTEX_POINT('',#327);
#108=VERTEX_POINT('',#330);
#109=VERTEX_POINT('',#333);
#110=VERTEX_POINT('',#336);
#111=VERTEX_POINT('',#339);
#112=VERTEX_POINT('',#342);
#113=VERTEX_POINT('',#345);
#114=VERTEX_POINT('',#348);
#115=VERTEX_POINT('',#352);
#116=EDGE_CURVE('',#100,#100,#84,.T.);
#117=EDGE_CURVE('',#101,#101,#85,.T.);
#118=EDGE_CURVE('',#102,#102,#86,.T.);
#119=EDGE_CURVE('',#103,#103,#87,.T.);
#120=EDGE_CURVE('',#104,#104,#88,.T.);
#121=EDGE_CURVE('',#105,#105,#89,.T.);
#122=EDGE_CURVE('',#106,#106,#90,.T.);
#123=EDGE_CURVE('',#107,#107,#91,.T.);
#124=EDGE_CURVE('',#108,#108,#92,.T.);
#125=EDGE_CURVE('',#109,#109,#93,.T.);
#126=EDGE_CURVE('',#110,#110,#94,.T.);
#127=EDGE_CURVE('',#111,#111,#95,.T.);
#128=EDGE_CURVE('',#112,#112,#96,.T.);
#129=EDGE_CURVE('',#113,#113,#97,.T.);
#130=EDGE_CURVE('',#114,#114,#98,.T.);
#131=EDGE_CURVE('',#115,#115,#99,.T.);
#132=ORIENTED_EDGE('',*,*,#116,.T.);
#133=ORIENTED_EDGE('',*,*,#117,.T.);
#134=ORIENTED_EDGE('',*,*,#118,.F.);
#135=ORIENTED_EDGE('',*,*,#117,.F.);
#136=ORIENTED_EDGE('',*,*,#119,.T.);
#137=ORIENTED_EDGE('',*,*,#120,.T.);
#138=ORIENTED_EDGE('',*,*,#121,.F.);
#139=ORIENTED_EDGE('',*,*,#119,.F.);
#140=ORIENTED_EDGE('',*,*,#122,.T.);
#141=ORIENTED_EDGE('',*,*,#123,.T.);
#142=ORIENTED_EDGE('',*,*,#124,.F.);
#143=ORIENTED_EDGE('',*,*,#123,.F.);
#144=ORIENTED_EDGE('',*,*,#124,.T.);
#145=ORIENTED_EDGE('',*,*,#125,.T.);
#146=ORIENTED_EDGE('',*,*,#126,.F.);
#147=ORIENTED_EDGE('',*,*,#125,.F.);
#148=ORIENTED_EDGE('',*,*,#127,.T.);
#149=ORIENTED_EDGE('',*,*,#126,.T.);
#150=ORIENTED_EDGE('',*,*,#128,.F.);
#151=ORIENTED_EDGE('',*,*,#127,.F.);
#152=ORIENTED_EDGE('',*,*,#129,.T.);
#153=ORIENTED_EDGE('',*,*,#121,.T.);
#154=ORIENTED_EDGE('',*,*,#129,.F.);
#155=ORIENTED_EDGE('',*,*,#130,.F.);
#156=ORIENTED_EDGE('',*,*,#118,.T.);
#157=ORIENTED_EDGE('',*,*,#130,.T.);
#158=ORIENTED_EDGE('',*,*,#128,.T.);
#159=ORIENTED_EDGE('',*,*,#131,.T.);
#160=ORIENTED_EDGE('',*,*,#120,.F.);
#161=ORIENTED_EDGE('',*,*,#131,.F.);
#162=ORIENTED_EDGE('',*,*,#116,.F.);
#163=ORIENTED_EDGE('',*,*,#122,.F.);
#164=TOROIDAL_SURFACE('',#209,1.6,1.1);
#165=TOROIDAL_SURFACE('',#214,1.75,1.1);
#166=TOROIDAL_SURFACE('',#219,0.85,0.05);
#167=TOROIDAL_SURFACE('',#224,0.95,0.05);
#168=TOROIDAL_SURFACE('',#228,1.,0.05);
#169=TOROIDAL_SURFACE('',#232,0.6,0.05);
#170=TOROIDAL_SURFACE('',#236,0.55,0.05);
#171=TOROIDAL_SURFACE('',#237,1.,0.05);
#172=TOROIDAL_SURFACE('',#239,1.78582133806681,1.14258132837643);
#173=TOROIDAL_SURFACE('',#240,1.63582133806681,1.14258132837643);
#174=STYLED_ITEM('',(#378),#191);
#175=STYLED_ITEM('',(#378),#192);
#176=STYLED_ITEM('',(#378),#193);
#177=STYLED_ITEM('',(#378),#194);
#178=STYLED_ITEM('',(#378),#195);
#179=STYLED_ITEM('',(#378),#196);
#180=STYLED_ITEM('',(#378),#197);
#181=STYLED_ITEM('',(#378),#198);
#182=STYLED_ITEM('',(#378),#199);
#183=STYLED_ITEM('',(#378),#200);
#184=STYLED_ITEM('',(#378),#201);
#185=STYLED_ITEM('',(#378),#202);
#186=STYLED_ITEM('',(#378),#203);
#187=STYLED_ITEM('',(#378),#204);
#188=STYLED_ITEM('',(#378),#205);
#189=STYLED_ITEM('',(#378),#206);
#190=STYLED_ITEM('',(#377),#13);
#191=ADVANCED_FACE('',(#36,#20),#164,.T.);
#192=ADVANCED_FACE('',(#37,#21),#16,.F.);
#193=ADVANCED_FACE('',(#38,#22),#165,.F.);
#194=ADVANCED_FACE('',(#39,#23),#17,.T.);
#195=ADVANCED_FACE('',(#40,#24),#166,.F.);
#196=ADVANCED_FACE('',(#41,#25),#18,.F.);
#197=ADVANCED_FACE('',(#42,#26),#167,.T.);
#198=ADVANCED_FACE('',(#43,#27),#14,.F.);
#199=ADVANCED_FACE('',(#44,#28),#168,.T.);
#200=ADVANCED_FACE('',(#45,#29),#19,.T.);
#201=ADVANCED_FACE('',(#46,#30),#169,.T.);
#202=ADVANCED_FACE('',(#47,#31),#15,.T.);
#203=ADVANCED_FACE('',(#48,#32),#170,.T.);
#204=ADVANCED_FACE('',(#49,#33),#171,.T.);
#205=ADVANCED_FACE('',(#50,#34),#172,.F.);
#206=ADVANCED_FACE('',(#51,#35),#173,.T.);
#207=CLOSED_SHELL('',(#191,#192,#193,#194,#195,#196,#197,#198,#199,#200,
#201,#202,#203,#204,#205,#206));
#208=AXIS2_PLACEMENT_3D('placement',#307,#241,#242);
#209=AXIS2_PLACEMENT_3D('',#308,#243,#244);
#210=AXIS2_PLACEMENT_3D('',#310,#245,#246);
#211=AXIS2_PLACEMENT_3D('',#312,#247,#248);
#212=AXIS2_PLACEMENT_3D('',#313,#249,#250);
#213=AXIS2_PLACEMENT_3D('',#315,#251,#252);
#214=AXIS2_PLACEMENT_3D('',#316,#253,#254);
#215=AXIS2_PLACEMENT_3D('',#318,#255,#256);
#216=AXIS2_PLACEMENT_3D('',#320,#257,#258);
#217=AXIS2_PLACEMENT_3D('',#321,#259,#260);
#218=AXIS2_PLACEMENT_3D('',#323,#261,#262);
#219=AXIS2_PLACEMENT_3D('',#324,#263,#264);
#220=AXIS2_PLACEMENT_3D('',#326,#265,#266);
#221=AXIS2_PLACEMENT_3D('',#328,#267,#268);
#222=AXIS2_PLACEMENT_3D('',#329,#269,#270);
#223=AXIS2_PLACEMENT_3D('',#331,#271,#272);
#224=AXIS2_PLACEMENT_3D('',#332,#273,#274);
#225=AXIS2_PLACEMENT_3D('',#334,#275,#276);
#226=AXIS2_PLACEMENT_3D('',#335,#277,#278);
#227=AXIS2_PLACEMENT_3D('',#337,#279,#280);
#228=AXIS2_PLACEMENT_3D('',#338,#281,#282);
#229=AXIS2_PLACEMENT_3D('',#340,#283,#284);
#230=AXIS2_PLACEMENT_3D('',#341,#285,#286);
#231=AXIS2_PLACEMENT_3D('',#343,#287,#288);
#232=AXIS2_PLACEMENT_3D('',#344,#289,#290);
#233=AXIS2_PLACEMENT_3D('',#346,#291,#292);
#234=AXIS2_PLACEMENT_3D('',#347,#293,#294);
#235=AXIS2_PLACEMENT_3D('',#349,#295,#296);
#236=AXIS2_PLACEMENT_3D('',#350,#297,#298);
#237=AXIS2_PLACEMENT_3D('',#351,#299,#300);
#238=AXIS2_PLACEMENT_3D('',#353,#301,#302);
#239=AXIS2_PLACEMENT_3D('',#354,#303,#304);
#240=AXIS2_PLACEMENT_3D('',#355,#305,#306);
#241=DIRECTION('axis',(0.,0.,1.));
#242=DIRECTION('refdir',(1.,0.,0.));
#243=DIRECTION('center_axis',(0.,0.,-1.));
#244=DIRECTION('ref_axis',(-1.,0.,0.));
#245=DIRECTION('center_axis',(0.,0.,-1.));
#246=DIRECTION('ref_axis',(-1.,-1.22464679914735E-16,0.));
#247=DIRECTION('center_axis',(0.,0.,1.));
#248=DIRECTION('ref_axis',(-1.,-1.22464679914735E-16,0.));
#249=DIRECTION('center_axis',(0.,0.,-1.));
#250=DIRECTION('ref_axis',(-1.,0.,0.));
#251=DIRECTION('center_axis',(0.,0.,-1.));
#252=DIRECTION('ref_axis',(-1.,0.,0.));
#253=DIRECTION('center_axis',(0.,0.,-1.));
#254=DIRECTION('ref_axis',(-1.,0.,0.));
#255=DIRECTION('center_axis',(0.,0.,-1.));
#256=DIRECTION('ref_axis',(-1.,0.,0.));
#257=DIRECTION('center_axis',(0.,0.,1.));
#258=DIRECTION('ref_axis',(-1.,0.,0.));
#259=DIRECTION('center_axis',(0.,0.,-1.));
#260=DIRECTION('ref_axis',(-1.,0.,0.));
#261=DIRECTION('center_axis',(0.,0.,1.));
#262=DIRECTION('ref_axis',(-1.,0.,0.));
#263=DIRECTION('center_axis',(0.,0.,1.));
#264=DIRECTION('ref_axis',(1.,0.,0.));
#265=DIRECTION('center_axis',(0.,0.,1.));
#266=DIRECTION('ref_axis',(-1.,1.22464679914735E-16,0.));
#267=DIRECTION('center_axis',(0.,0.,-1.));
#268=DIRECTION('ref_axis',(-1.,1.22464679914735E-16,0.));
#269=DIRECTION('center_axis',(0.,0.,1.));
#270=DIRECTION('ref_axis',(1.,0.,0.));
#271=DIRECTION('center_axis',(0.,0.,1.));
#272=DIRECTION('ref_axis',(1.,0.,0.));
#273=DIRECTION('center_axis',(0.,0.,1.));
#274=DIRECTION('ref_axis',(1.,0.,0.));
#275=DIRECTION('center_axis',(0.,0.,-1.));
#276=DIRECTION('ref_axis',(1.,0.,0.));
#277=DIRECTION('center_axis',(0.,0.,1.));
#278=DIRECTION('ref_axis',(1.,0.,0.));
#279=DIRECTION('center_axis',(0.,0.,1.));
#280=DIRECTION('ref_axis',(-1.,0.,0.));
#281=DIRECTION('center_axis',(0.,0.,-1.));
#282=DIRECTION('ref_axis',(-1.,0.,0.));
#283=DIRECTION('center_axis',(0.,0.,-1.));
#284=DIRECTION('ref_axis',(-1.,0.,0.));
#285=DIRECTION('center_axis',(0.,0.,1.));
#286=DIRECTION('ref_axis',(-1.,0.,0.));
#287=DIRECTION('center_axis',(0.,0.,1.));
#288=DIRECTION('ref_axis',(-1.,0.,0.));
#289=DIRECTION('center_axis',(0.,0.,-1.));
#290=DIRECTION('ref_axis',(-1.,0.,0.));
#291=DIRECTION('center_axis',(0.,0.,-1.));
#292=DIRECTION('ref_axis',(-1.,0.,0.));
#293=DIRECTION('center_axis',(0.,0.,1.));
#294=DIRECTION('ref_axis',(1.,0.,0.));
#295=DIRECTION('center_axis',(0.,0.,1.));
#296=DIRECTION('ref_axis',(-1.,0.,0.));
#297=DIRECTION('center_axis',(0.,0.,-1.));
#298=DIRECTION('ref_axis',(-1.,0.,0.));
#299=DIRECTION('center_axis',(0.,0.,1.));
#300=DIRECTION('ref_axis',(1.,0.,0.));
#301=DIRECTION('center_axis',(0.,0.,-1.));
#302=DIRECTION('ref_axis',(-1.,0.,0.));
#303=DIRECTION('center_axis',(0.,0.,1.));
#304=DIRECTION('ref_axis',(1.,0.,0.));
#305=DIRECTION('center_axis',(0.,0.,1.));
#306=DIRECTION('ref_axis',(1.,0.,0.));
#307=CARTESIAN_POINT('',(0.,0.,0.));
#308=CARTESIAN_POINT('Origin',(0.,0.,-4.89891704271364));
#309=CARTESIAN_POINT('',(0.674630281020169,-1.23259516440783E-31,-5.49363620601275));
#310=CARTESIAN_POINT('Origin',(0.,0.,-5.49363620601275));
#311=CARTESIAN_POINT('',(0.5,1.22464679914735E-16,-4.89891704271364));
#312=CARTESIAN_POINT('Origin',(0.,0.,-4.89891704271364));
#313=CARTESIAN_POINT('Origin',(0.,0.,0.));
#314=CARTESIAN_POINT('',(0.5,-6.12323399573677E-17,-0.05));
#315=CARTESIAN_POINT('Origin',(0.,0.,-0.05));
#316=CARTESIAN_POINT('Origin',(0.,0.,-4.89891704271364));
#317=CARTESIAN_POINT('',(0.65,-7.9602041944578E-17,-4.89891704271364));
#318=CARTESIAN_POINT('Origin',(0.,0.,-4.89891704271364));
#319=CARTESIAN_POINT('',(0.824630281020154,1.00988083413131E-16,-5.49363620601272));
#320=CARTESIAN_POINT('Origin',(0.,0.,-5.49363620601272));
#321=CARTESIAN_POINT('Origin',(0.,0.,0.));
#322=CARTESIAN_POINT('',(0.65,7.9602041944578E-17,-0.05));
#323=CARTESIAN_POINT('Origin',(0.,0.,-0.05));
#324=CARTESIAN_POINT('Origin',(0.,0.,-5.77296554528002));
#325=CARTESIAN_POINT('',(0.882946236846447,-1.54074395550979E-32,-5.73535510154882));
#326=CARTESIAN_POINT('Origin',(0.,0.,-5.73535510154882));
#327=CARTESIAN_POINT('',(0.9,-2.20436423846524E-16,-5.77296554528002));
#328=CARTESIAN_POINT('Origin',(0.,0.,-5.77296554528002));
#329=CARTESIAN_POINT('Origin',(0.,0.,-6.));
#330=CARTESIAN_POINT('',(-0.9,-1.10218211923262E-16,-5.95));
#331=CARTESIAN_POINT('Origin',(0.,0.,-5.95));
#332=CARTESIAN_POINT('Origin',(0.,0.,-5.95));
#333=CARTESIAN_POINT('',(-0.95,1.16341445918999E-16,-6.));
#334=CARTESIAN_POINT('Origin',(0.,0.,-6.));
#335=CARTESIAN_POINT('Origin',(-6.57862460314856E-17,0.,-6.));
#336=CARTESIAN_POINT('',(1.,1.22464679914735E-16,-6.));
#337=CARTESIAN_POINT('Origin',(0.,0.,-6.));
#338=CARTESIAN_POINT('Origin',(0.,0.,-5.95));
#339=CARTESIAN_POINT('',(1.05,-1.28587913910472E-16,-5.95));
#340=CARTESIAN_POINT('Origin',(0.,0.,-5.95));
#341=CARTESIAN_POINT('Origin',(0.,0.,-6.));
#342=CARTESIAN_POINT('',(1.05,1.28587913910472E-16,-5.77296554528002));
#343=CARTESIAN_POINT('Origin',(0.,0.,-5.77296554528002));
#344=CARTESIAN_POINT('Origin',(0.,0.,-0.05));
#345=CARTESIAN_POINT('',(0.6,-7.34788079488412E-17,0.));
#346=CARTESIAN_POINT('Origin',(0.,0.,0.));
#347=CARTESIAN_POINT('Origin',(-2.88735480591867E-17,-1.11200222819026E-17,
0.));
#348=CARTESIAN_POINT('',(0.55,6.73555739531044E-17,0.));
#349=CARTESIAN_POINT('Origin',(0.,0.,0.));
#350=CARTESIAN_POINT('Origin',(0.,0.,-0.05));
#351=CARTESIAN_POINT('Origin',(0.,0.,-5.77296554528002));
#352=CARTESIAN_POINT('',(1.03294623684645,-1.26499430264531E-16,-5.73535510154882));
#353=CARTESIAN_POINT('Origin',(0.,0.,-5.73535510154882));
#354=CARTESIAN_POINT('Origin',(0.,0.,-4.87589528636437));
#355=CARTESIAN_POINT('Origin',(0.,0.,-4.87589528636437));
#356=UNCERTAINTY_MEASURE_WITH_UNIT(LENGTH_MEASURE(0.01),#360,
'DISTANCE_ACCURACY_VALUE',
'Maximum model space distance between geometric entities at asserted c
onnectivities');
#357=UNCERTAINTY_MEASURE_WITH_UNIT(LENGTH_MEASURE(1.E-6),#360,
'DISTANCE_ACCURACY_VALUE',
'Maximum model space distance between geometric entities at asserted c
onnectivities');
#358=(
GEOMETRIC_REPRESENTATION_CONTEXT(3)
GLOBAL_UNCERTAINTY_ASSIGNED_CONTEXT((#356))
GLOBAL_UNIT_ASSIGNED_CONTEXT((#360,#363,#361))
REPRESENTATION_CONTEXT('','3D')
);
#359=(
GEOMETRIC_REPRESENTATION_CONTEXT(3)
GLOBAL_UNCERTAINTY_ASSIGNED_CONTEXT((#357))
GLOBAL_UNIT_ASSIGNED_CONTEXT((#360,#363,#361))
REPRESENTATION_CONTEXT('','3D')
);
#360=(
LENGTH_UNIT()
NAMED_UNIT(*)
SI_UNIT(.MILLI.,.METRE.)
);
#361=(
NAMED_UNIT(*)
SI_UNIT($,.STERADIAN.)
SOLID_ANGLE_UNIT()
);
#362=DIMENSIONAL_EXPONENTS(0.,0.,0.,0.,0.,0.,0.);
#363=(
CONVERSION_BASED_UNIT('degree',#365)
NAMED_UNIT(#362)
PLANE_ANGLE_UNIT()
);
#364=(
NAMED_UNIT(*)
PLANE_ANGLE_UNIT()
SI_UNIT($,.RADIAN.)
);
#365=PLANE_ANGLE_MEASURE_WITH_UNIT(PLANE_ANGLE_MEASURE(0.01745329252),#364);
#366=SHAPE_DEFINITION_REPRESENTATION(#367,#368);
#367=PRODUCT_DEFINITION_SHAPE('',$,#370);
#368=SHAPE_REPRESENTATION('',(#208),#358);
#369=PRODUCT_DEFINITION_CONTEXT('part definition',#374,'design');
#370=PRODUCT_DEFINITION('UnInsulated_Ferrules','UnInsulated_Ferrules',#371,
#369);
#371=PRODUCT_DEFINITION_FORMATION('',$,#376);
#372=PRODUCT_RELATED_PRODUCT_CATEGORY('UnInsulated_Ferrules',
'UnInsulated_Ferrules',(#376));
#373=APPLICATION_PROTOCOL_DEFINITION('international standard',
'automotive_design',2009,#374);
#374=APPLICATION_CONTEXT(
'Core Data for Automotive Mechanical Design Process');
#375=PRODUCT_CONTEXT('part definition',#374,'mechanical');
#376=PRODUCT('UnInsulated_Ferrules','UnInsulated_Ferrules',$,(#375));
#377=PRESENTATION_STYLE_ASSIGNMENT((#379));
#378=PRESENTATION_STYLE_ASSIGNMENT((#380));
#379=SURFACE_STYLE_USAGE(.BOTH.,#381);
#380=SURFACE_STYLE_USAGE(.BOTH.,#382);
#381=SURFACE_SIDE_STYLE('',(#383));
#382=SURFACE_SIDE_STYLE('',(#384));
#383=SURFACE_STYLE_FILL_AREA(#385);
#384=SURFACE_STYLE_FILL_AREA(#386);
#385=FILL_AREA_STYLE('',(#387));
#386=FILL_AREA_STYLE('',(#388));
#387=FILL_AREA_STYLE_COLOUR('',#389);
#388=FILL_AREA_STYLE_COLOUR('',#390);
#389=COLOUR_RGB('',0.749019607843137,0.749019607843137,0.749019607843137);
#390=COLOUR_RGB('',0.968627450980392,0.933333333333333,0.792156862745098);
ENDSEC;
END-ISO-10303-21;
