ISO-10303-21;
HEADER;
/* Generated by software containing ST-Developer
 * from STEP Tools, Inc. (www.steptools.com) 
 */

FILE_DESCRIPTION(
/* description */ (''),
/* implementation_level */ '2;1');

FILE_NAME(
/* name */ 
'C:\\Users\\CAD Station\\Desktop\\Insulated Wire Ferrules\\UL Single I
nsulated Wire Ferrules\\AWG26-20\\SingleInsulatedFerrule.stp',
/* time_stamp */ '2016-06-10T14:35:21-04:00',
/* author */ ('CAD Station'),
/* organization */ (''),
/* preprocessor_version */ 'ST-DEVELOPER v16.1',
/* originating_system */ 'Autodesk Inventor 2016',
/* authorisation */ '');

FILE_SCHEMA (('AUTOMOTIVE_DESIGN { 1 0 10303 214 3 1 1 }'));
ENDSEC;

DATA;
#10=MECHANICAL_DESIGN_GEOMETRIC_PRESENTATION_REPRESENTATION('',(#124,#125,
#134,#128,#127,#132,#129,#133,#131,#130,#126),#253);
#11=SHAPE_REPRESENTATION_RELATIONSHIP('SRR','None',#262,#12);
#12=ADVANCED_BREP_SHAPE_REPRESENTATION('',(#13),#252);
#13=MANIFOLD_SOLID_BREP('Solid1',#146);
#14=PLANE('',#169);
#15=CONICAL_SURFACE('',#160,0.875,45.);
#16=CONICAL_SURFACE('',#165,0.75,41.9872124958168);
#17=CYLINDRICAL_SURFACE('',#151,0.75);
#18=CYLINDRICAL_SURFACE('',#155,0.875);
#19=CYLINDRICAL_SURFACE('',#162,0.375);
#20=CYLINDRICAL_SURFACE('',#167,0.3);
#21=FACE_BOUND('',#44,.T.);
#22=FACE_BOUND('',#46,.T.);
#23=FACE_BOUND('',#48,.T.);
#24=FACE_BOUND('',#50,.T.);
#25=FACE_BOUND('',#52,.T.);
#26=FACE_BOUND('',#54,.T.);
#27=FACE_BOUND('',#56,.T.);
#28=FACE_BOUND('',#58,.T.);
#29=FACE_BOUND('',#60,.T.);
#30=FACE_BOUND('',#62,.T.);
#31=FACE_BOUND('',#64,.T.);
#32=FACE_OUTER_BOUND('',#43,.T.);
#33=FACE_OUTER_BOUND('',#45,.T.);
#34=FACE_OUTER_BOUND('',#47,.T.);
#35=FACE_OUTER_BOUND('',#49,.T.);
#36=FACE_OUTER_BOUND('',#51,.T.);
#37=FACE_OUTER_BOUND('',#53,.T.);
#38=FACE_OUTER_BOUND('',#55,.T.);
#39=FACE_OUTER_BOUND('',#57,.T.);
#40=FACE_OUTER_BOUND('',#59,.T.);
#41=FACE_OUTER_BOUND('',#61,.T.);
#42=FACE_OUTER_BOUND('',#63,.T.);
#43=EDGE_LOOP('',(#98));
#44=EDGE_LOOP('',(#99));
#45=EDGE_LOOP('',(#100));
#46=EDGE_LOOP('',(#101));
#47=EDGE_LOOP('',(#102));
#48=EDGE_LOOP('',(#103));
#49=EDGE_LOOP('',(#104));
#50=EDGE_LOOP('',(#105));
#51=EDGE_LOOP('',(#106));
#52=EDGE_LOOP('',(#107));
#53=EDGE_LOOP('',(#108));
#54=EDGE_LOOP('',(#109));
#55=EDGE_LOOP('',(#110));
#56=EDGE_LOOP('',(#111));
#57=EDGE_LOOP('',(#112));
#58=EDGE_LOOP('',(#113));
#59=EDGE_LOOP('',(#114));
#60=EDGE_LOOP('',(#115));
#61=EDGE_LOOP('',(#116));
#62=EDGE_LOOP('',(#117));
#63=EDGE_LOOP('',(#118));
#64=EDGE_LOOP('',(#119));
#65=CIRCLE('',#149,0.75);
#66=CIRCLE('',#150,0.775);
#67=CIRCLE('',#152,0.75);
#68=CIRCLE('',#154,0.875);
#69=CIRCLE('',#156,0.875);
#70=CIRCLE('',#158,0.375);
#71=CIRCLE('',#159,0.404289321881345);
#72=CIRCLE('',#161,0.801776695296637);
#73=CIRCLE('',#163,0.375);
#74=CIRCLE('',#166,0.3);
#75=CIRCLE('',#168,0.3);
#76=VERTEX_POINT('',#218);
#77=VERTEX_POINT('',#220);
#78=VERTEX_POINT('',#223);
#79=VERTEX_POINT('',#226);
#80=VERTEX_POINT('',#229);
#81=VERTEX_POINT('',#232);
#82=VERTEX_POINT('',#234);
#83=VERTEX_POINT('',#237);
#84=VERTEX_POINT('',#240);
#85=VERTEX_POINT('',#244);
#86=VERTEX_POINT('',#247);
#87=EDGE_CURVE('',#76,#76,#65,.T.);
#88=EDGE_CURVE('',#77,#77,#66,.T.);
#89=EDGE_CURVE('',#78,#78,#67,.T.);
#90=EDGE_CURVE('',#79,#79,#68,.T.);
#91=EDGE_CURVE('',#80,#80,#69,.T.);
#92=EDGE_CURVE('',#81,#81,#70,.T.);
#93=EDGE_CURVE('',#82,#82,#71,.T.);
#94=EDGE_CURVE('',#83,#83,#72,.T.);
#95=EDGE_CURVE('',#84,#84,#73,.T.);
#96=EDGE_CURVE('',#85,#85,#74,.T.);
#97=EDGE_CURVE('',#86,#86,#75,.T.);
#98=ORIENTED_EDGE('',*,*,#87,.T.);
#99=ORIENTED_EDGE('',*,*,#88,.F.);
#100=ORIENTED_EDGE('',*,*,#87,.F.);
#101=ORIENTED_EDGE('',*,*,#89,.T.);
#102=ORIENTED_EDGE('',*,*,#90,.T.);
#103=ORIENTED_EDGE('',*,*,#88,.T.);
#104=ORIENTED_EDGE('',*,*,#91,.F.);
#105=ORIENTED_EDGE('',*,*,#90,.F.);
#106=ORIENTED_EDGE('',*,*,#92,.T.);
#107=ORIENTED_EDGE('',*,*,#93,.T.);
#108=ORIENTED_EDGE('',*,*,#94,.F.);
#109=ORIENTED_EDGE('',*,*,#93,.F.);
#110=ORIENTED_EDGE('',*,*,#95,.T.);
#111=ORIENTED_EDGE('',*,*,#92,.F.);
#112=ORIENTED_EDGE('',*,*,#91,.T.);
#113=ORIENTED_EDGE('',*,*,#94,.T.);
#114=ORIENTED_EDGE('',*,*,#96,.F.);
#115=ORIENTED_EDGE('',*,*,#89,.F.);
#116=ORIENTED_EDGE('',*,*,#96,.T.);
#117=ORIENTED_EDGE('',*,*,#97,.F.);
#118=ORIENTED_EDGE('',*,*,#95,.F.);
#119=ORIENTED_EDGE('',*,*,#97,.T.);
#120=TOROIDAL_SURFACE('',#148,0.85,0.1);
#121=TOROIDAL_SURFACE('',#153,0.775,0.1);
#122=TOROIDAL_SURFACE('',#157,0.475,0.1);
#123=TOROIDAL_SURFACE('',#164,0.625,0.25);
#124=STYLED_ITEM('',(#272),#135);
#125=STYLED_ITEM('',(#272),#136);
#126=STYLED_ITEM('',(#272),#137);
#127=STYLED_ITEM('',(#272),#138);
#128=STYLED_ITEM('',(#274),#139);
#129=STYLED_ITEM('',(#272),#140);
#130=STYLED_ITEM('',(#274),#141);
#131=STYLED_ITEM('',(#272),#142);
#132=STYLED_ITEM('',(#274),#144);
#133=STYLED_ITEM('',(#273),#145);
#134=STYLED_ITEM('',(#271),#13);
#135=ADVANCED_FACE('',(#32,#21),#120,.T.);
#136=ADVANCED_FACE('',(#33,#22),#17,.F.);
#137=ADVANCED_FACE('',(#34,#23),#121,.T.);
#138=ADVANCED_FACE('',(#35,#24),#18,.T.);
#139=ADVANCED_FACE('',(#36,#25),#122,.F.);
#140=ADVANCED_FACE('',(#37,#26),#15,.T.);
#141=ADVANCED_FACE('',(#38,#27),#19,.T.);
#142=ADVANCED_FACE('',(#39,#28),#123,.T.);
#143=ADVANCED_FACE('',(#40,#29),#16,.F.);
#144=ADVANCED_FACE('',(#41,#30),#20,.F.);
#145=ADVANCED_FACE('',(#42,#31),#14,.T.);
#146=CLOSED_SHELL('',(#135,#136,#137,#138,#139,#140,#141,#142,#143,#144,
#145));
#147=AXIS2_PLACEMENT_3D('placement',#216,#170,#171);
#148=AXIS2_PLACEMENT_3D('',#217,#172,#173);
#149=AXIS2_PLACEMENT_3D('',#219,#174,#175);
#150=AXIS2_PLACEMENT_3D('',#221,#176,#177);
#151=AXIS2_PLACEMENT_3D('',#222,#178,#179);
#152=AXIS2_PLACEMENT_3D('',#224,#180,#181);
#153=AXIS2_PLACEMENT_3D('',#225,#182,#183);
#154=AXIS2_PLACEMENT_3D('',#227,#184,#185);
#155=AXIS2_PLACEMENT_3D('',#228,#186,#187);
#156=AXIS2_PLACEMENT_3D('',#230,#188,#189);
#157=AXIS2_PLACEMENT_3D('',#231,#190,#191);
#158=AXIS2_PLACEMENT_3D('',#233,#192,#193);
#159=AXIS2_PLACEMENT_3D('',#235,#194,#195);
#160=AXIS2_PLACEMENT_3D('',#236,#196,#197);
#161=AXIS2_PLACEMENT_3D('',#238,#198,#199);
#162=AXIS2_PLACEMENT_3D('',#239,#200,#201);
#163=AXIS2_PLACEMENT_3D('',#241,#202,#203);
#164=AXIS2_PLACEMENT_3D('',#242,#204,#205);
#165=AXIS2_PLACEMENT_3D('',#243,#206,#207);
#166=AXIS2_PLACEMENT_3D('',#245,#208,#209);
#167=AXIS2_PLACEMENT_3D('',#246,#210,#211);
#168=AXIS2_PLACEMENT_3D('',#248,#212,#213);
#169=AXIS2_PLACEMENT_3D('',#249,#214,#215);
#170=DIRECTION('axis',(0.,0.,1.));
#171=DIRECTION('refdir',(1.,0.,0.));
#172=DIRECTION('center_axis',(0.,0.,-1.));
#173=DIRECTION('ref_axis',(-1.,0.,0.));
#174=DIRECTION('center_axis',(0.,0.,1.));
#175=DIRECTION('ref_axis',(-1.,0.,0.));
#176=DIRECTION('center_axis',(0.,0.,1.));
#177=DIRECTION('ref_axis',(1.,0.,0.));
#178=DIRECTION('center_axis',(0.,0.,1.));
#179=DIRECTION('ref_axis',(1.,0.,0.));
#180=DIRECTION('center_axis',(0.,0.,1.));
#181=DIRECTION('ref_axis',(1.,0.,0.));
#182=DIRECTION('center_axis',(0.,0.,-1.));
#183=DIRECTION('ref_axis',(-1.,0.,0.));
#184=DIRECTION('center_axis',(0.,0.,-1.));
#185=DIRECTION('ref_axis',(1.,0.,0.));
#186=DIRECTION('center_axis',(0.,0.,-1.));
#187=DIRECTION('ref_axis',(1.,0.,0.));
#188=DIRECTION('center_axis',(0.,0.,1.));
#189=DIRECTION('ref_axis',(-1.,-1.22464679914735E-16,0.));
#190=DIRECTION('center_axis',(0.,0.,-1.));
#191=DIRECTION('ref_axis',(-1.,0.,0.));
#192=DIRECTION('center_axis',(0.,0.,-1.));
#193=DIRECTION('ref_axis',(-1.,0.,0.));
#194=DIRECTION('center_axis',(0.,0.,1.));
#195=DIRECTION('ref_axis',(-1.,-6.12323399573677E-17,0.));
#196=DIRECTION('center_axis',(0.,0.,-1.));
#197=DIRECTION('ref_axis',(1.,0.,0.));
#198=DIRECTION('center_axis',(0.,0.,-1.));
#199=DIRECTION('ref_axis',(-1.,-1.22464679914735E-16,0.));
#200=DIRECTION('center_axis',(0.,0.,-1.));
#201=DIRECTION('ref_axis',(-1.,0.,0.));
#202=DIRECTION('center_axis',(0.,0.,-1.));
#203=DIRECTION('ref_axis',(-1.,0.,0.));
#204=DIRECTION('center_axis',(0.,0.,1.));
#205=DIRECTION('ref_axis',(1.,0.,0.));
#206=DIRECTION('center_axis',(0.,0.,-1.));
#207=DIRECTION('ref_axis',(1.,0.,0.));
#208=DIRECTION('center_axis',(0.,0.,-1.));
#209=DIRECTION('ref_axis',(-1.,0.,0.));
#210=DIRECTION('center_axis',(0.,0.,-1.));
#211=DIRECTION('ref_axis',(-1.,0.,0.));
#212=DIRECTION('center_axis',(0.,0.,-1.));
#213=DIRECTION('ref_axis',(-1.,0.,0.));
#214=DIRECTION('center_axis',(0.,0.,1.));
#215=DIRECTION('ref_axis',(1.,0.,0.));
#216=CARTESIAN_POINT('',(0.,0.,0.));
#217=CARTESIAN_POINT('Origin',(0.,0.,-9.93385621722339));
#218=CARTESIAN_POINT('',(0.75,9.18485099360515E-17,-9.93385621722339));
#219=CARTESIAN_POINT('Origin',(0.,0.,-9.93385621722339));
#220=CARTESIAN_POINT('',(-0.775,-9.49101269339198E-17,-10.));
#221=CARTESIAN_POINT('Origin',(0.,0.,-10.));
#222=CARTESIAN_POINT('Origin',(0.,0.,-10.));
#223=CARTESIAN_POINT('',(-0.75,9.18485099360515E-17,-6.5));
#224=CARTESIAN_POINT('Origin',(0.,0.,-6.5));
#225=CARTESIAN_POINT('Origin',(0.,0.,-9.9));
#226=CARTESIAN_POINT('',(-0.875,1.07156594925393E-16,-9.9));
#227=CARTESIAN_POINT('Origin',(0.,0.,-9.9));
#228=CARTESIAN_POINT('Origin',(0.,0.,-6.5));
#229=CARTESIAN_POINT('',(0.875,2.14313189850787E-16,-6.60355339059327));
#230=CARTESIAN_POINT('Origin',(0.,0.,-6.60355339059327));
#231=CARTESIAN_POINT('Origin',(0.,0.,-5.95857864376269));
#232=CARTESIAN_POINT('',(0.375,-4.59242549680257E-17,-5.95857864376269));
#233=CARTESIAN_POINT('Origin',(0.,0.,-5.95857864376269));
#234=CARTESIAN_POINT('',(0.404289321881345,4.95111623971444E-17,-6.02928932188135));
#235=CARTESIAN_POINT('Origin',(0.,-2.47555811985722E-17,-6.02928932188135));
#236=CARTESIAN_POINT('Origin',(0.,0.,-6.5));
#237=CARTESIAN_POINT('',(0.801776695296637,0.,-6.42677669529664));
#238=CARTESIAN_POINT('Origin',(0.,0.,-6.42677669529664));
#239=CARTESIAN_POINT('Origin',(0.,0.,0.));
#240=CARTESIAN_POINT('',(0.375,4.59242549680257E-17,0.));
#241=CARTESIAN_POINT('Origin',(0.,0.,0.));
#242=CARTESIAN_POINT('Origin',(0.,0.,-6.60355339059327));
#243=CARTESIAN_POINT('Origin',(0.,0.,-6.5));
#244=CARTESIAN_POINT('',(-0.3,0.,-6.));
#245=CARTESIAN_POINT('Origin',(0.,0.,-6.));
#246=CARTESIAN_POINT('Origin',(0.,0.,0.));
#247=CARTESIAN_POINT('',(0.3,3.67394039744206E-17,0.));
#248=CARTESIAN_POINT('Origin',(0.,0.,0.));
#249=CARTESIAN_POINT('Origin',(-2.31017265359667E-17,9.6373526443156E-18,
0.));
#250=UNCERTAINTY_MEASURE_WITH_UNIT(LENGTH_MEASURE(0.01),#254,
'DISTANCE_ACCURACY_VALUE',
'Maximum model space distance between geometric entities at asserted c
onnectivities');
#251=UNCERTAINTY_MEASURE_WITH_UNIT(LENGTH_MEASURE(1.E-6),#254,
'DISTANCE_ACCURACY_VALUE',
'Maximum model space distance between geometric entities at asserted c
onnectivities');
#252=(
GEOMETRIC_REPRESENTATION_CONTEXT(3)
GLOBAL_UNCERTAINTY_ASSIGNED_CONTEXT((#250))
GLOBAL_UNIT_ASSIGNED_CONTEXT((#254,#257,#255))
REPRESENTATION_CONTEXT('','3D')
);
#253=(
GEOMETRIC_REPRESENTATION_CONTEXT(3)
GLOBAL_UNCERTAINTY_ASSIGNED_CONTEXT((#251))
GLOBAL_UNIT_ASSIGNED_CONTEXT((#254,#257,#255))
REPRESENTATION_CONTEXT('','3D')
);
#254=(
LENGTH_UNIT()
NAMED_UNIT(*)
SI_UNIT(.MILLI.,.METRE.)
);
#255=(
NAMED_UNIT(*)
SI_UNIT($,.STERADIAN.)
SOLID_ANGLE_UNIT()
);
#256=DIMENSIONAL_EXPONENTS(0.,0.,0.,0.,0.,0.,0.);
#257=(
CONVERSION_BASED_UNIT('degree',#259)
NAMED_UNIT(#256)
PLANE_ANGLE_UNIT()
);
#258=(
NAMED_UNIT(*)
PLANE_ANGLE_UNIT()
SI_UNIT($,.RADIAN.)
);
#259=PLANE_ANGLE_MEASURE_WITH_UNIT(PLANE_ANGLE_MEASURE(0.01745329252),#258);
#260=SHAPE_DEFINITION_REPRESENTATION(#261,#262);
#261=PRODUCT_DEFINITION_SHAPE('',$,#264);
#262=SHAPE_REPRESENTATION('',(#147),#252);
#263=PRODUCT_DEFINITION_CONTEXT('part definition',#268,'design');
#264=PRODUCT_DEFINITION('Ferrule','Ferrule',#265,#263);
#265=PRODUCT_DEFINITION_FORMATION('',$,#270);
#266=PRODUCT_RELATED_PRODUCT_CATEGORY('Ferrule','Ferrule',(#270));
#267=APPLICATION_PROTOCOL_DEFINITION('international standard',
'automotive_design',2009,#268);
#268=APPLICATION_CONTEXT(
'Core Data for Automotive Mechanical Design Process');
#269=PRODUCT_CONTEXT('part definition',#268,'mechanical');
#270=PRODUCT('Ferrule','Ferrule',$,(#269));
#271=PRESENTATION_STYLE_ASSIGNMENT((#275));
#272=PRESENTATION_STYLE_ASSIGNMENT((#276));
#273=PRESENTATION_STYLE_ASSIGNMENT((#277));
#274=PRESENTATION_STYLE_ASSIGNMENT((#278));
#275=SURFACE_STYLE_USAGE(.BOTH.,#279);
#276=SURFACE_STYLE_USAGE(.BOTH.,#280);
#277=SURFACE_STYLE_USAGE(.BOTH.,#281);
#278=SURFACE_STYLE_USAGE(.BOTH.,#282);
#279=SURFACE_SIDE_STYLE('',(#283));
#280=SURFACE_SIDE_STYLE('',(#284));
#281=SURFACE_SIDE_STYLE('',(#285));
#282=SURFACE_SIDE_STYLE('',(#286));
#283=SURFACE_STYLE_FILL_AREA(#287);
#284=SURFACE_STYLE_FILL_AREA(#288);
#285=SURFACE_STYLE_FILL_AREA(#289);
#286=SURFACE_STYLE_FILL_AREA(#290);
#287=FILL_AREA_STYLE('',(#291));
#288=FILL_AREA_STYLE('',(#292));
#289=FILL_AREA_STYLE('',(#293));
#290=FILL_AREA_STYLE('',(#294));
#291=FILL_AREA_STYLE_COLOUR('',#295);
#292=FILL_AREA_STYLE_COLOUR('',#296);
#293=FILL_AREA_STYLE_COLOUR('',#297);
#294=FILL_AREA_STYLE_COLOUR('',#298);
#295=COLOUR_RGB('',0.749019607843137,0.749019607843137,0.749019607843137);
#296=COLOUR_RGB('',0.945098039215686,0.949019607843137,0.972549019607843);
#297=COLOUR_RGB('',0.580392156862745,0.650980392156863,0.72156862745098);
#298=COLOUR_RGB('',1.,0.996078431372549,0.964705882352941);
ENDSEC;
END-ISO-10303-21;
