ISO-10303-21;
HEADER;
/* Generated by software containing ST-Developer
 * from STEP Tools, Inc. (www.steptools.com) 
 */

FILE_DESCRIPTION(
/* description */ (''),
/* implementation_level */ '2;1');

FILE_NAME(
/* name */ 
'C:\\Users\\CAD Station\\Desktop\\1PB\\22 mm\\22mm Push Button Accesso
ries\\2BA9SE\\2BA9SE.stp',
/* time_stamp */ '2016-07-22T09:53:17-04:00',
/* author */ ('CAD Station'),
/* organization */ (''),
/* preprocessor_version */ 'ST-DEVELOPER v16.1',
/* originating_system */ 'Autodesk Inventor 2016',
/* authorisation */ '');

FILE_SCHEMA (('AUTOMOTIVE_DESIGN { 1 0 10303 214 3 1 1 }'));
ENDSEC;

DATA;
#10=MECHANICAL_DESIGN_GEOMETRIC_PRESENTATION_REPRESENTATION('',(#149,#153,
#154,#150,#155,#151,#152,#157,#160,#159,#158,#156,#161,#162),#306);
#11=SHAPE_REPRESENTATION_RELATIONSHIP('SRR','None',#315,#12);
#12=ADVANCED_BREP_SHAPE_REPRESENTATION('',(#13),#305);
#13=MANIFOLD_SOLID_BREP('Solid1',#176);
#14=CONICAL_SURFACE('',#191,7.55254895065599,11.7682889320206);
#15=CONICAL_SURFACE('',#195,10.,11.7682889320206);
#16=CYLINDRICAL_SURFACE('',#186,4.5);
#17=CYLINDRICAL_SURFACE('',#190,1.5);
#18=CYLINDRICAL_SURFACE('',#193,7.5);
#19=CYLINDRICAL_SURFACE('',#198,10.);
#20=CYLINDRICAL_SURFACE('',#201,7.5);
#21=PLANE('',#181);
#22=PLANE('',#188);
#23=PLANE('',#200);
#24=PLANE('',#204);
#25=FACE_BOUND('',#52,.T.);
#26=FACE_BOUND('',#54,.T.);
#27=FACE_BOUND('',#56,.T.);
#28=FACE_BOUND('',#58,.T.);
#29=FACE_BOUND('',#60,.T.);
#30=FACE_BOUND('',#62,.T.);
#31=FACE_BOUND('',#64,.T.);
#32=FACE_BOUND('',#66,.T.);
#33=FACE_BOUND('',#68,.T.);
#34=FACE_BOUND('',#70,.T.);
#35=FACE_BOUND('',#72,.T.);
#36=FACE_BOUND('',#74,.T.);
#37=FACE_BOUND('',#76,.T.);
#38=FACE_OUTER_BOUND('',#51,.T.);
#39=FACE_OUTER_BOUND('',#53,.T.);
#40=FACE_OUTER_BOUND('',#55,.T.);
#41=FACE_OUTER_BOUND('',#57,.T.);
#42=FACE_OUTER_BOUND('',#59,.T.);
#43=FACE_OUTER_BOUND('',#61,.T.);
#44=FACE_OUTER_BOUND('',#63,.T.);
#45=FACE_OUTER_BOUND('',#65,.T.);
#46=FACE_OUTER_BOUND('',#67,.T.);
#47=FACE_OUTER_BOUND('',#69,.T.);
#48=FACE_OUTER_BOUND('',#71,.T.);
#49=FACE_OUTER_BOUND('',#73,.T.);
#50=FACE_OUTER_BOUND('',#75,.T.);
#51=EDGE_LOOP('',(#119));
#52=EDGE_LOOP('',(#120));
#53=EDGE_LOOP('',(#121));
#54=EDGE_LOOP('',(#122));
#55=EDGE_LOOP('',(#123));
#56=EDGE_LOOP('',(#124));
#57=EDGE_LOOP('',(#125));
#58=EDGE_LOOP('',(#126));
#59=EDGE_LOOP('',(#127));
#60=EDGE_LOOP('',(#128));
#61=EDGE_LOOP('',(#129));
#62=EDGE_LOOP('',(#130));
#63=EDGE_LOOP('',(#131));
#64=EDGE_LOOP('',(#132));
#65=EDGE_LOOP('',(#133));
#66=EDGE_LOOP('',(#134));
#67=EDGE_LOOP('',(#135));
#68=EDGE_LOOP('',(#136));
#69=EDGE_LOOP('',(#137));
#70=EDGE_LOOP('',(#138));
#71=EDGE_LOOP('',(#139));
#72=EDGE_LOOP('',(#140));
#73=EDGE_LOOP('',(#141));
#74=EDGE_LOOP('',(#142,#143));
#75=EDGE_LOOP('',(#144,#145));
#76=EDGE_LOOP('',(#146));
#77=CIRCLE('',#179,4.01805355559717);
#78=CIRCLE('',#180,5.);
#79=CIRCLE('',#182,1.5);
#80=CIRCLE('',#184,2.5);
#81=CIRCLE('',#185,4.5);
#82=CIRCLE('',#187,4.5);
#83=CIRCLE('',#189,1.5);
#84=CIRCLE('',#192,7.5);
#85=CIRCLE('',#194,7.5);
#86=CIRCLE('',#196,10.);
#87=CIRCLE('',#197,7.5);
#88=CIRCLE('',#199,10.);
#89=CIRCLE('',#202,7.5);
#90=CIRCLE('',#203,7.5);
#91=VERTEX_POINT('',#263);
#92=VERTEX_POINT('',#265);
#93=VERTEX_POINT('',#268);
#94=VERTEX_POINT('',#271);
#95=VERTEX_POINT('',#273);
#96=VERTEX_POINT('',#276);
#97=VERTEX_POINT('',#279);
#98=VERTEX_POINT('',#283);
#99=VERTEX_POINT('',#286);
#100=VERTEX_POINT('',#289);
#101=VERTEX_POINT('',#291);
#102=VERTEX_POINT('',#294);
#103=VERTEX_POINT('',#298);
#104=VERTEX_POINT('',#299);
#105=EDGE_CURVE('',#91,#91,#77,.T.);
#106=EDGE_CURVE('',#92,#92,#78,.F.);
#107=EDGE_CURVE('',#93,#93,#79,.T.);
#108=EDGE_CURVE('',#94,#94,#80,.T.);
#109=EDGE_CURVE('',#95,#95,#81,.T.);
#110=EDGE_CURVE('',#96,#96,#82,.T.);
#111=EDGE_CURVE('',#97,#97,#83,.T.);
#112=EDGE_CURVE('',#98,#98,#84,.T.);
#113=EDGE_CURVE('',#99,#99,#85,.T.);
#114=EDGE_CURVE('',#100,#100,#86,.T.);
#115=EDGE_CURVE('',#101,#101,#87,.T.);
#116=EDGE_CURVE('',#102,#102,#88,.T.);
#117=EDGE_CURVE('',#103,#104,#89,.T.);
#118=EDGE_CURVE('',#104,#103,#90,.T.);
#119=ORIENTED_EDGE('',*,*,#105,.T.);
#120=ORIENTED_EDGE('',*,*,#106,.T.);
#121=ORIENTED_EDGE('',*,*,#105,.F.);
#122=ORIENTED_EDGE('',*,*,#107,.T.);
#123=ORIENTED_EDGE('',*,*,#108,.T.);
#124=ORIENTED_EDGE('',*,*,#109,.T.);
#125=ORIENTED_EDGE('',*,*,#110,.F.);
#126=ORIENTED_EDGE('',*,*,#109,.F.);
#127=ORIENTED_EDGE('',*,*,#108,.F.);
#128=ORIENTED_EDGE('',*,*,#111,.F.);
#129=ORIENTED_EDGE('',*,*,#111,.T.);
#130=ORIENTED_EDGE('',*,*,#107,.F.);
#131=ORIENTED_EDGE('',*,*,#112,.F.);
#132=ORIENTED_EDGE('',*,*,#106,.F.);
#133=ORIENTED_EDGE('',*,*,#113,.F.);
#134=ORIENTED_EDGE('',*,*,#112,.T.);
#135=ORIENTED_EDGE('',*,*,#114,.T.);
#136=ORIENTED_EDGE('',*,*,#115,.T.);
#137=ORIENTED_EDGE('',*,*,#116,.F.);
#138=ORIENTED_EDGE('',*,*,#114,.F.);
#139=ORIENTED_EDGE('',*,*,#116,.T.);
#140=ORIENTED_EDGE('',*,*,#113,.T.);
#141=ORIENTED_EDGE('',*,*,#115,.F.);
#142=ORIENTED_EDGE('',*,*,#117,.F.);
#143=ORIENTED_EDGE('',*,*,#118,.F.);
#144=ORIENTED_EDGE('',*,*,#117,.T.);
#145=ORIENTED_EDGE('',*,*,#118,.T.);
#146=ORIENTED_EDGE('',*,*,#110,.T.);
#147=TOROIDAL_SURFACE('',#178,4.01805355559717,2.);
#148=TOROIDAL_SURFACE('',#183,2.5,2.);
#149=STYLED_ITEM('',(#325),#163);
#150=STYLED_ITEM('',(#325),#164);
#151=STYLED_ITEM('',(#325),#165);
#152=STYLED_ITEM('',(#325),#166);
#153=STYLED_ITEM('',(#325),#167);
#154=STYLED_ITEM('',(#325),#168);
#155=STYLED_ITEM('',(#325),#169);
#156=STYLED_ITEM('',(#325),#170);
#157=STYLED_ITEM('',(#325),#171);
#158=STYLED_ITEM('',(#325),#172);
#159=STYLED_ITEM('',(#325),#173);
#160=STYLED_ITEM('',(#325),#174);
#161=STYLED_ITEM('',(#325),#175);
#162=STYLED_ITEM('',(#324),#13);
#163=ADVANCED_FACE('',(#38,#25),#147,.F.);
#164=ADVANCED_FACE('',(#39,#26),#21,.T.);
#165=ADVANCED_FACE('',(#40,#27),#148,.F.);
#166=ADVANCED_FACE('',(#41,#28),#16,.F.);
#167=ADVANCED_FACE('',(#42,#29),#22,.F.);
#168=ADVANCED_FACE('',(#43,#30),#17,.F.);
#169=ADVANCED_FACE('',(#44,#31),#14,.F.);
#170=ADVANCED_FACE('',(#45,#32),#18,.F.);
#171=ADVANCED_FACE('',(#46,#33),#15,.T.);
#172=ADVANCED_FACE('',(#47,#34),#19,.T.);
#173=ADVANCED_FACE('',(#48,#35),#23,.T.);
#174=ADVANCED_FACE('',(#49,#36),#20,.T.);
#175=ADVANCED_FACE('',(#50,#37),#24,.F.);
#176=CLOSED_SHELL('',(#163,#164,#165,#166,#167,#168,#169,#170,#171,#172,
#173,#174,#175));
#177=AXIS2_PLACEMENT_3D('placement',#261,#205,#206);
#178=AXIS2_PLACEMENT_3D('',#262,#207,#208);
#179=AXIS2_PLACEMENT_3D('',#264,#209,#210);
#180=AXIS2_PLACEMENT_3D('',#266,#211,#212);
#181=AXIS2_PLACEMENT_3D('',#267,#213,#214);
#182=AXIS2_PLACEMENT_3D('',#269,#215,#216);
#183=AXIS2_PLACEMENT_3D('',#270,#217,#218);
#184=AXIS2_PLACEMENT_3D('',#272,#219,#220);
#185=AXIS2_PLACEMENT_3D('',#274,#221,#222);
#186=AXIS2_PLACEMENT_3D('',#275,#223,#224);
#187=AXIS2_PLACEMENT_3D('',#277,#225,#226);
#188=AXIS2_PLACEMENT_3D('',#278,#227,#228);
#189=AXIS2_PLACEMENT_3D('',#280,#229,#230);
#190=AXIS2_PLACEMENT_3D('',#281,#231,#232);
#191=AXIS2_PLACEMENT_3D('',#282,#233,#234);
#192=AXIS2_PLACEMENT_3D('',#284,#235,#236);
#193=AXIS2_PLACEMENT_3D('',#285,#237,#238);
#194=AXIS2_PLACEMENT_3D('',#287,#239,#240);
#195=AXIS2_PLACEMENT_3D('',#288,#241,#242);
#196=AXIS2_PLACEMENT_3D('',#290,#243,#244);
#197=AXIS2_PLACEMENT_3D('',#292,#245,#246);
#198=AXIS2_PLACEMENT_3D('',#293,#247,#248);
#199=AXIS2_PLACEMENT_3D('',#295,#249,#250);
#200=AXIS2_PLACEMENT_3D('',#296,#251,#252);
#201=AXIS2_PLACEMENT_3D('',#297,#253,#254);
#202=AXIS2_PLACEMENT_3D('',#300,#255,#256);
#203=AXIS2_PLACEMENT_3D('',#301,#257,#258);
#204=AXIS2_PLACEMENT_3D('',#302,#259,#260);
#205=DIRECTION('axis',(0.,0.,1.));
#206=DIRECTION('refdir',(1.,0.,0.));
#207=DIRECTION('center_axis',(0.,1.,0.));
#208=DIRECTION('ref_axis',(-1.,0.,0.));
#209=DIRECTION('center_axis',(0.,-1.,0.));
#210=DIRECTION('ref_axis',(-1.,0.,0.));
#211=DIRECTION('center_axis',(0.,-1.,0.));
#212=DIRECTION('ref_axis',(1.,0.,0.));
#213=DIRECTION('center_axis',(0.,1.,0.));
#214=DIRECTION('ref_axis',(0.,0.,1.));
#215=DIRECTION('center_axis',(0.,-1.,0.));
#216=DIRECTION('ref_axis',(-1.,0.,0.));
#217=DIRECTION('center_axis',(0.,1.,0.));
#218=DIRECTION('ref_axis',(0.,0.,1.));
#219=DIRECTION('center_axis',(0.,1.,0.));
#220=DIRECTION('ref_axis',(-1.,0.,0.));
#221=DIRECTION('center_axis',(0.,-1.,0.));
#222=DIRECTION('ref_axis',(-1.,0.,0.));
#223=DIRECTION('center_axis',(0.,1.,0.));
#224=DIRECTION('ref_axis',(-1.,0.,0.));
#225=DIRECTION('center_axis',(0.,1.,0.));
#226=DIRECTION('ref_axis',(-1.,0.,0.));
#227=DIRECTION('center_axis',(0.,1.,0.));
#228=DIRECTION('ref_axis',(0.,0.,1.));
#229=DIRECTION('center_axis',(0.,-1.,0.));
#230=DIRECTION('ref_axis',(-1.,0.,0.));
#231=DIRECTION('center_axis',(0.,-1.,0.));
#232=DIRECTION('ref_axis',(-1.,0.,0.));
#233=DIRECTION('center_axis',(0.,1.,0.));
#234=DIRECTION('ref_axis',(-1.,0.,0.));
#235=DIRECTION('center_axis',(0.,-1.,0.));
#236=DIRECTION('ref_axis',(-1.,0.,0.));
#237=DIRECTION('center_axis',(0.,1.,0.));
#238=DIRECTION('ref_axis',(-1.,0.,0.));
#239=DIRECTION('center_axis',(0.,-1.,0.));
#240=DIRECTION('ref_axis',(-1.,0.,0.));
#241=DIRECTION('center_axis',(0.,1.,0.));
#242=DIRECTION('ref_axis',(-1.,0.,0.));
#243=DIRECTION('center_axis',(0.,-1.,0.));
#244=DIRECTION('ref_axis',(-1.,0.,0.));
#245=DIRECTION('center_axis',(0.,1.,0.));
#246=DIRECTION('ref_axis',(1.,0.,0.));
#247=DIRECTION('center_axis',(0.,1.,0.));
#248=DIRECTION('ref_axis',(-1.,0.,0.));
#249=DIRECTION('center_axis',(0.,1.,0.));
#250=DIRECTION('ref_axis',(-1.,0.,0.));
#251=DIRECTION('center_axis',(0.,1.,0.));
#252=DIRECTION('ref_axis',(0.,0.,1.));
#253=DIRECTION('center_axis',(0.,1.,0.));
#254=DIRECTION('ref_axis',(1.,0.,0.));
#255=DIRECTION('center_axis',(0.,-1.,0.));
#256=DIRECTION('ref_axis',(1.,0.,0.));
#257=DIRECTION('center_axis',(0.,-1.,0.));
#258=DIRECTION('ref_axis',(1.,0.,0.));
#259=DIRECTION('center_axis',(0.,1.,0.));
#260=DIRECTION('ref_axis',(0.,0.,1.));
#261=CARTESIAN_POINT('',(0.,0.,0.));
#262=CARTESIAN_POINT('Origin',(0.,42.,0.));
#263=CARTESIAN_POINT('',(4.01805355559717,40.,4.92069642566471E-16));
#264=CARTESIAN_POINT('Origin',(0.,40.,0.));
#265=CARTESIAN_POINT('',(5.,40.2576506721313,-6.12323399573677E-16));
#266=CARTESIAN_POINT('Origin',(0.,40.2576506721313,0.));
#267=CARTESIAN_POINT('Origin',(-3.23256652641189E-16,40.,1.2335811384724E-16));
#268=CARTESIAN_POINT('',(1.5,40.,-1.83697019872103E-16));
#269=CARTESIAN_POINT('Origin',(0.,40.,0.));
#270=CARTESIAN_POINT('Origin',(0.,6.5,0.));
#271=CARTESIAN_POINT('',(2.5,8.5,-3.06161699786838E-16));
#272=CARTESIAN_POINT('Origin',(0.,8.5,0.));
#273=CARTESIAN_POINT('',(4.5,6.5,5.51091059616309E-16));
#274=CARTESIAN_POINT('Origin',(0.,6.5,0.));
#275=CARTESIAN_POINT('Origin',(0.,0.,0.));
#276=CARTESIAN_POINT('',(4.5,0.,5.51091059616309E-16));
#277=CARTESIAN_POINT('Origin',(0.,0.,0.));
#278=CARTESIAN_POINT('Origin',(-2.51521111380092E-16,8.5,1.02798428206033E-16));
#279=CARTESIAN_POINT('',(1.5,8.5,1.83697019872103E-16));
#280=CARTESIAN_POINT('Origin',(0.,8.5,0.));
#281=CARTESIAN_POINT('Origin',(0.,40.,0.));
#282=CARTESIAN_POINT('Origin',(0.,52.50988563528,0.));
#283=CARTESIAN_POINT('',(7.5,52.2576506721313,9.18485099360515E-16));
#284=CARTESIAN_POINT('Origin',(0.,52.2576506721313,0.));
#285=CARTESIAN_POINT('Origin',(0.,52.,0.));
#286=CARTESIAN_POINT('',(7.5,57.,9.18485099360515E-16));
#287=CARTESIAN_POINT('Origin',(0.,57.,0.));
#288=CARTESIAN_POINT('Origin',(0.,52.,0.));
#289=CARTESIAN_POINT('',(-10.,52.,0.));
#290=CARTESIAN_POINT('Origin',(0.,52.,0.));
#291=CARTESIAN_POINT('',(7.5,40.,9.18485099360515E-16));
#292=CARTESIAN_POINT('Origin',(0.,40.,0.));
#293=CARTESIAN_POINT('Origin',(0.,52.,0.));
#294=CARTESIAN_POINT('',(10.,57.,-1.22464679914735E-15));
#295=CARTESIAN_POINT('Origin',(0.,57.,0.));
#296=CARTESIAN_POINT('Origin',(-4.72128241470665E-16,57.,-1.85037170770859E-16));
#297=CARTESIAN_POINT('Origin',(0.,0.,0.));
#298=CARTESIAN_POINT('',(-7.5,0.,9.18485099360515E-16));
#299=CARTESIAN_POINT('',(7.5,0.,9.18485099360515E-16));
#300=CARTESIAN_POINT('Origin',(0.,0.,0.));
#301=CARTESIAN_POINT('Origin',(0.,0.,0.));
#302=CARTESIAN_POINT('Origin',(7.65404249467096E-17,0.,0.));
#303=UNCERTAINTY_MEASURE_WITH_UNIT(LENGTH_MEASURE(0.01),#307,
'DISTANCE_ACCURACY_VALUE',
'Maximum model space distance between geometric entities at asserted c
onnectivities');
#304=UNCERTAINTY_MEASURE_WITH_UNIT(LENGTH_MEASURE(1.E-6),#307,
'DISTANCE_ACCURACY_VALUE',
'Maximum model space distance between geometric entities at asserted c
onnectivities');
#305=(
GEOMETRIC_REPRESENTATION_CONTEXT(3)
GLOBAL_UNCERTAINTY_ASSIGNED_CONTEXT((#303))
GLOBAL_UNIT_ASSIGNED_CONTEXT((#307,#310,#308))
REPRESENTATION_CONTEXT('','3D')
);
#306=(
GEOMETRIC_REPRESENTATION_CONTEXT(3)
GLOBAL_UNCERTAINTY_ASSIGNED_CONTEXT((#304))
GLOBAL_UNIT_ASSIGNED_CONTEXT((#307,#310,#308))
REPRESENTATION_CONTEXT('','3D')
);
#307=(
LENGTH_UNIT()
NAMED_UNIT(*)
SI_UNIT(.MILLI.,.METRE.)
);
#308=(
NAMED_UNIT(*)
SI_UNIT($,.STERADIAN.)
SOLID_ANGLE_UNIT()
);
#309=DIMENSIONAL_EXPONENTS(0.,0.,0.,0.,0.,0.,0.);
#310=(
CONVERSION_BASED_UNIT('degree',#312)
NAMED_UNIT(#309)
PLANE_ANGLE_UNIT()
);
#311=(
NAMED_UNIT(*)
PLANE_ANGLE_UNIT()
SI_UNIT($,.RADIAN.)
);
#312=PLANE_ANGLE_MEASURE_WITH_UNIT(PLANE_ANGLE_MEASURE(0.01745329252),#311);
#313=SHAPE_DEFINITION_REPRESENTATION(#314,#315);
#314=PRODUCT_DEFINITION_SHAPE('',$,#317);
#315=SHAPE_REPRESENTATION('',(#177),#305);
#316=PRODUCT_DEFINITION_CONTEXT('part definition',#321,'design');
#317=PRODUCT_DEFINITION('2BA9SE','2BA9SE',#318,#316);
#318=PRODUCT_DEFINITION_FORMATION('',$,#323);
#319=PRODUCT_RELATED_PRODUCT_CATEGORY('2BA9SE','2BA9SE',(#323));
#320=APPLICATION_PROTOCOL_DEFINITION('international standard',
'automotive_design',2009,#321);
#321=APPLICATION_CONTEXT(
'Core Data for Automotive Mechanical Design Process');
#322=PRODUCT_CONTEXT('part definition',#321,'mechanical');
#323=PRODUCT('2BA9SE','2BA9SE',$,(#322));
#324=PRESENTATION_STYLE_ASSIGNMENT((#326));
#325=PRESENTATION_STYLE_ASSIGNMENT((#327));
#326=SURFACE_STYLE_USAGE(.BOTH.,#328);
#327=SURFACE_STYLE_USAGE(.BOTH.,#329);
#328=SURFACE_SIDE_STYLE('',(#330));
#329=SURFACE_SIDE_STYLE('',(#331));
#330=SURFACE_STYLE_FILL_AREA(#332);
#331=SURFACE_STYLE_FILL_AREA(#333);
#332=FILL_AREA_STYLE('',(#334));
#333=FILL_AREA_STYLE('',(#335));
#334=FILL_AREA_STYLE_COLOUR('',#336);
#335=FILL_AREA_STYLE_COLOUR('',#337);
#336=COLOUR_RGB('',0.749019607843137,0.749019607843137,0.749019607843137);
#337=COLOUR_RGB('',0.250980392156863,0.250980392156863,0.250980392156863);
ENDSEC;
END-ISO-10303-21;
